Юта — Жили-были

Рубрика: Правильные аккорды
Метки:
Понедельник, 24 января 2011 г.
Просмотров: 21131
Подписаться на комментарии по RSS
F#m  E6   Hm   C#
-2-  -0-  -2-  -4-
-2-  -2-  -3-  -6-
-2-  -1-  -4-  -6-
-4-  -2-  -4-  -6-
-4-  -2-  -2-  -4-
-2-  -0-  -x-  -x-
 
Вступление и первый куплет:
 
 F#m                        E6
|-----------------------------|-----------------------------|
|------2------3------2--------|------2------3------2--------|
|----2----2------2------2-----|----1----1------1------1-----|
|-4---------4------4------4---|-2---------2------2------2---|
|-----------------------------|-----------------------------|
|-----------------------------|-----------------------------|
 
 Hm                         C#
|-----------------------------|-----------------------------|
|------0------2------0--------|------0------2------0--------|
|---------2------2------2-----|----1----1------1------1---1-|
|-0--4------4------4------4---|-3---------3------3------3---|
|-----------------------------|-----------------------------|
|-----------------------------|-----------------------------|
 
   F#m                    E6
Когда-нибудь настанут холода,
  Hm                    C#
И ты опять уедешь, и тогда —
  F#m                         E6
Тебе во след рукой — и камнем вниз,
  Hm                        C#
И сны сбылись, и косы расплелись.
 
Припев:
 
   перед припевом последний аккорд играется так:
 
    C#
   |----------------------------|
   |------0-----2-----3p2-------|
   |----1---1-----1-------1---1-|
   |-3--------3-----3-------3---|
   |----------------------------|
   |----------------------------|
 
   припев — боем.
 
        F#m         D
     Когда настанут холода,
       A       C#
     И белая дорога ляжет,
         F#m           D
     Все промолчат, никто не скажет,
           A        C#
     Что с холодами не в ладах.
        Em        F#7
     Да дело даже не в годах,
          Hm              C#
     Не в деньгах, не в музейной пыли.
        F#m         D
     Не насовсем, а навсегда,
       A            C#        F#m D A
     Недолго только жили-были.
     C#        F#m D A C# F#m
     Жили-были.
 
Проигрыш:
 
  F#m               D                 A                 C#
|-----5-----4-----|-2-----0---------|-----------------|--------------|
|-------2-----2---|-3-3-----3---3---|-2-----0---------|----6---7---9-|
|---2-----2-----2-|-----2-----2---2-|-2-2-------2-----|------6---6---|
|-4---------------|-0---------------|-----2-------2---|-3/6----------|
|-----------------|-----------------|-0---------------|--------------|
|-----------------|-----------------|-----------------|--------------|
 
И если я однажды замолчу,
Меня не предавай, я так хочу.
Надеяться, держаться, дожидаться.
Ах, только бы надолго не прощаться.
 
Припев.
 
Моя тюрьма — немое заключенье,
Я стану то ли плачем, то ли пеньем.
Ворованная строчка, ты же знаешь.
Удача, ты меня не покидаешь.
 
Припев — 2 раза.
twitter.com facebook.com vkontakte.ru mail.ru friendfeed.com pikabu.ru blogger.com liveinternet.ru livejournal.ru memori.ru google.com bobrdobr.ru yandex.ru del.icio.us

Оставьте комментарий!

Не регистрировать/аноним

Используйте нормальные имена.

Если вы уже зарегистрированы как комментатор или хотите зарегистрироваться, укажите пароль и свой действующий email.
(При регистрации на указанный адрес придет письмо с кодом активации и ссылкой на ваш персональный аккаунт, где вы сможете изменить свои данные, включая адрес сайта, ник, описание, контакты и т.д.)



(обязательно)